ISO-10303-21;
HEADER;
/* Generated by software containing ST-Developer
 * from STEP Tools, Inc. (www.steptools.com) 
 */
/* OPTION: using custom schema-name function */

FILE_DESCRIPTION(
/* description */ (''),
/* implementation_level */ '2;1');

FILE_NAME(
/* name */ 'WOX 7-6 Kundenmodell.stp',
/* time_stamp */ '2015-10-19T11:45:52+02:00',
/* author */ (''),
/* organization */ (''),
/* preprocessor_version */ 'ST-DEVELOPER v15',
/* originating_system */ 'SIEMENS PLM Software NX 9.0',
/* authorisation */ '');

FILE_SCHEMA (('AUTOMOTIVE_DESIGN { 1 0 10303 214 3 1 1 1 }'));
ENDSEC;

DATA;
#10=PROPERTY_DEFINITION_REPRESENTATION(#14,#12);
#11=PROPERTY_DEFINITION_REPRESENTATION(#15,#13);
#12=REPRESENTATION('',(#16),#305);
#13=REPRESENTATION('',(#17),#305);
#14=PROPERTY_DEFINITION('pmi validation property','',#21);
#15=PROPERTY_DEFINITION('pmi validation property','',#21);
#16=VALUE_REPRESENTATION_ITEM('number of annotations',COUNT_MEASURE(0.));
#17=VALUE_REPRESENTATION_ITEM('number of views',COUNT_MEASURE(0.));
#18=SHAPE_REPRESENTATION_RELATIONSHIP('None',
'relationship between zer189C0F9Fge9i-None and zer189C0F9Fge9i-None',#30,
#19);
#19=ADVANCED_BREP_SHAPE_REPRESENTATION('zer189C0F9Fge9i-None',(#54,#55,
#56),#305);
#20=SHAPE_DEFINITION_REPRESENTATION(#21,#30);
#21=PRODUCT_DEFINITION_SHAPE('','',#22);
#22=PRODUCT_DEFINITION(' ','',#24,#23);
#23=PRODUCT_DEFINITION_CONTEXT('part definition',#29,'design');
#24=PRODUCT_DEFINITION_FORMATION_WITH_SPECIFIED_SOURCE(' ',' ',#26,
 .NOT_KNOWN.);
#25=PRODUCT_RELATED_PRODUCT_CATEGORY('part','',(#26));
#26=PRODUCT('zer189C0F9Fge9i','zer189C0F9Fge9i',' ',(#27));
#27=PRODUCT_CONTEXT(' ',#29,'mechanical');
#28=APPLICATION_PROTOCOL_DEFINITION('international standard',
'automotive_design',2010,#29);
#29=APPLICATION_CONTEXT(
'core data for automotive mechanical design processes');
#30=SHAPE_REPRESENTATION('zer189C0F9Fge9i-None',(#192),#305);
#31=PRESENTATION_LAYER_ASSIGNMENT('90','Layer 90',(#54,#55,#56));
#32=STYLED_ITEM('',(#35),#54);
#33=STYLED_ITEM('',(#36),#55);
#34=STYLED_ITEM('',(#37),#56);
#35=PRESENTATION_STYLE_ASSIGNMENT((#38));
#36=PRESENTATION_STYLE_ASSIGNMENT((#39));
#37=PRESENTATION_STYLE_ASSIGNMENT((#40));
#38=SURFACE_STYLE_USAGE(.BOTH.,#41);
#39=SURFACE_STYLE_USAGE(.BOTH.,#42);
#40=SURFACE_STYLE_USAGE(.BOTH.,#43);
#41=SURFACE_SIDE_STYLE('',(#44));
#42=SURFACE_SIDE_STYLE('',(#45));
#43=SURFACE_SIDE_STYLE('',(#46));
#44=SURFACE_STYLE_FILL_AREA(#47);
#45=SURFACE_STYLE_FILL_AREA(#48);
#46=SURFACE_STYLE_FILL_AREA(#49);
#47=FILL_AREA_STYLE('',(#50));
#48=FILL_AREA_STYLE('',(#51));
#49=FILL_AREA_STYLE('',(#52));
#50=FILL_AREA_STYLE_COLOUR('',#53);
#51=FILL_AREA_STYLE_COLOUR('',#53);
#52=FILL_AREA_STYLE_COLOUR('',#53);
#53=COLOUR_RGB('Silver Gray',0.6,0.6,0.6);
#54=MANIFOLD_SOLID_BREP('',#57);
#55=MANIFOLD_SOLID_BREP('',#58);
#56=MANIFOLD_SOLID_BREP('',#59);
#57=CLOSED_SHELL('',(#66,#67,#68,#69));
#58=CLOSED_SHELL('',(#70,#71,#72,#73));
#59=CLOSED_SHELL('',(#74,#75,#76,#77));
#60=TOROIDAL_SURFACE('',#197,9.1,3.5);
#61=TOROIDAL_SURFACE('',#200,9.1,3.5);
#62=TOROIDAL_SURFACE('',#203,9.1,3.5);
#63=TOROIDAL_SURFACE('',#207,9.09999999999999,3.5);
#64=TOROIDAL_SURFACE('',#211,9.1,3.5);
#65=TOROIDAL_SURFACE('',#215,9.1,3.5);
#66=ADVANCED_FACE('',(#84,#85),#78,.T.);
#67=ADVANCED_FACE('',(#86,#87),#60,.T.);
#68=ADVANCED_FACE('',(#88,#89),#79,.T.);
#69=ADVANCED_FACE('',(#90,#91),#61,.T.);
#70=ADVANCED_FACE('',(#92,#93),#62,.T.);
#71=ADVANCED_FACE('',(#94,#95),#80,.T.);
#72=ADVANCED_FACE('',(#96,#97),#63,.T.);
#73=ADVANCED_FACE('',(#98,#99),#81,.T.);
#74=ADVANCED_FACE('',(#100,#101),#64,.T.);
#75=ADVANCED_FACE('',(#102,#103),#82,.T.);
#76=ADVANCED_FACE('',(#104,#105),#65,.T.);
#77=ADVANCED_FACE('',(#106,#107),#83,.T.);
#78=CYLINDRICAL_SURFACE('',#195,3.5);
#79=CYLINDRICAL_SURFACE('',#199,3.5);
#80=CYLINDRICAL_SURFACE('',#205,3.5);
#81=CYLINDRICAL_SURFACE('',#208,3.5);
#82=CYLINDRICAL_SURFACE('',#213,3.5);
#83=CYLINDRICAL_SURFACE('',#216,3.5);
#84=FACE_BOUND('',#108,.T.);
#85=FACE_BOUND('',#109,.T.);
#86=FACE_BOUND('',#110,.T.);
#87=FACE_BOUND('',#111,.T.);
#88=FACE_BOUND('',#112,.T.);
#89=FACE_BOUND('',#113,.T.);
#90=FACE_BOUND('',#114,.T.);
#91=FACE_BOUND('',#115,.T.);
#92=FACE_BOUND('',#116,.T.);
#93=FACE_BOUND('',#117,.T.);
#94=FACE_BOUND('',#118,.T.);
#95=FACE_BOUND('',#119,.T.);
#96=FACE_BOUND('',#120,.T.);
#97=FACE_BOUND('',#121,.T.);
#98=FACE_BOUND('',#122,.T.);
#99=FACE_BOUND('',#123,.T.);
#100=FACE_BOUND('',#124,.T.);
#101=FACE_BOUND('',#125,.T.);
#102=FACE_BOUND('',#126,.T.);
#103=FACE_BOUND('',#127,.T.);
#104=FACE_BOUND('',#128,.T.);
#105=FACE_BOUND('',#129,.T.);
#106=FACE_BOUND('',#130,.T.);
#107=FACE_BOUND('',#131,.T.);
#108=EDGE_LOOP('',(#132));
#109=EDGE_LOOP('',(#133));
#110=EDGE_LOOP('',(#134));
#111=EDGE_LOOP('',(#135));
#112=EDGE_LOOP('',(#136));
#113=EDGE_LOOP('',(#137));
#114=EDGE_LOOP('',(#138));
#115=EDGE_LOOP('',(#139));
#116=EDGE_LOOP('',(#140));
#117=EDGE_LOOP('',(#141));
#118=EDGE_LOOP('',(#142));
#119=EDGE_LOOP('',(#143));
#120=EDGE_LOOP('',(#144));
#121=EDGE_LOOP('',(#145));
#122=EDGE_LOOP('',(#146));
#123=EDGE_LOOP('',(#147));
#124=EDGE_LOOP('',(#148));
#125=EDGE_LOOP('',(#149));
#126=EDGE_LOOP('',(#150));
#127=EDGE_LOOP('',(#151));
#128=EDGE_LOOP('',(#152));
#129=EDGE_LOOP('',(#153));
#130=EDGE_LOOP('',(#154));
#131=EDGE_LOOP('',(#155));
#132=ORIENTED_EDGE('',*,*,#168,.T.);
#133=ORIENTED_EDGE('',*,*,#169,.F.);
#134=ORIENTED_EDGE('',*,*,#170,.T.);
#135=ORIENTED_EDGE('',*,*,#168,.F.);
#136=ORIENTED_EDGE('',*,*,#171,.T.);
#137=ORIENTED_EDGE('',*,*,#170,.F.);
#138=ORIENTED_EDGE('',*,*,#171,.F.);
#139=ORIENTED_EDGE('',*,*,#169,.T.);
#140=ORIENTED_EDGE('',*,*,#172,.T.);
#141=ORIENTED_EDGE('',*,*,#173,.F.);
#142=ORIENTED_EDGE('',*,*,#174,.T.);
#143=ORIENTED_EDGE('',*,*,#172,.F.);
#144=ORIENTED_EDGE('',*,*,#174,.F.);
#145=ORIENTED_EDGE('',*,*,#175,.T.);
#146=ORIENTED_EDGE('',*,*,#175,.F.);
#147=ORIENTED_EDGE('',*,*,#173,.T.);
#148=ORIENTED_EDGE('',*,*,#176,.T.);
#149=ORIENTED_EDGE('',*,*,#177,.F.);
#150=ORIENTED_EDGE('',*,*,#178,.T.);
#151=ORIENTED_EDGE('',*,*,#176,.F.);
#152=ORIENTED_EDGE('',*,*,#179,.T.);
#153=ORIENTED_EDGE('',*,*,#178,.F.);
#154=ORIENTED_EDGE('',*,*,#179,.F.);
#155=ORIENTED_EDGE('',*,*,#177,.T.);
#156=VERTEX_POINT('',#269);
#157=VERTEX_POINT('',#271);
#158=VERTEX_POINT('',#274);
#159=VERTEX_POINT('',#277);
#160=VERTEX_POINT('',#281);
#161=VERTEX_POINT('',#283);
#162=VERTEX_POINT('',#286);
#163=VERTEX_POINT('',#289);
#164=VERTEX_POINT('',#293);
#165=VERTEX_POINT('',#295);
#166=VERTEX_POINT('',#298);
#167=VERTEX_POINT('',#301);
#168=EDGE_CURVE('',#156,#156,#180,.T.);
#169=EDGE_CURVE('',#157,#157,#181,.T.);
#170=EDGE_CURVE('',#158,#158,#182,.T.);
#171=EDGE_CURVE('',#159,#159,#183,.T.);
#172=EDGE_CURVE('',#160,#160,#184,.T.);
#173=EDGE_CURVE('',#161,#161,#185,.T.);
#174=EDGE_CURVE('',#162,#162,#186,.T.);
#175=EDGE_CURVE('',#163,#163,#187,.T.);
#176=EDGE_CURVE('',#164,#164,#188,.T.);
#177=EDGE_CURVE('',#165,#165,#189,.T.);
#178=EDGE_CURVE('',#166,#166,#190,.T.);
#179=EDGE_CURVE('',#167,#167,#191,.T.);
#180=CIRCLE('',#193,3.5);
#181=CIRCLE('',#194,3.5);
#182=CIRCLE('',#196,3.5);
#183=CIRCLE('',#198,3.5);
#184=CIRCLE('',#201,3.5);
#185=CIRCLE('',#202,3.5);
#186=CIRCLE('',#204,3.5);
#187=CIRCLE('',#206,3.5);
#188=CIRCLE('',#209,3.5);
#189=CIRCLE('',#210,3.5);
#190=CIRCLE('',#212,3.5);
#191=CIRCLE('',#214,3.5);
#192=AXIS2_PLACEMENT_3D('',#267,#217,#218);
#193=AXIS2_PLACEMENT_3D('',#268,#219,#220);
#194=AXIS2_PLACEMENT_3D('',#270,#221,#222);
#195=AXIS2_PLACEMENT_3D('',#272,#223,#224);
#196=AXIS2_PLACEMENT_3D('',#273,#225,#226);
#197=AXIS2_PLACEMENT_3D('',#275,#227,#228);
#198=AXIS2_PLACEMENT_3D('',#276,#229,#230);
#199=AXIS2_PLACEMENT_3D('',#278,#231,#232);
#200=AXIS2_PLACEMENT_3D('',#279,#233,#234);
#201=AXIS2_PLACEMENT_3D('',#280,#235,#236);
#202=AXIS2_PLACEMENT_3D('',#282,#237,#238);
#203=AXIS2_PLACEMENT_3D('',#284,#239,#240);
#204=AXIS2_PLACEMENT_3D('',#285,#241,#242);
#205=AXIS2_PLACEMENT_3D('',#287,#243,#244);
#206=AXIS2_PLACEMENT_3D('',#288,#245,#246);
#207=AXIS2_PLACEMENT_3D('',#290,#247,#248);
#208=AXIS2_PLACEMENT_3D('',#291,#249,#250);
#209=AXIS2_PLACEMENT_3D('',#292,#251,#252);
#210=AXIS2_PLACEMENT_3D('',#294,#253,#254);
#211=AXIS2_PLACEMENT_3D('',#296,#255,#256);
#212=AXIS2_PLACEMENT_3D('',#297,#257,#258);
#213=AXIS2_PLACEMENT_3D('',#299,#259,#260);
#214=AXIS2_PLACEMENT_3D('',#300,#261,#262);
#215=AXIS2_PLACEMENT_3D('',#302,#263,#264);
#216=AXIS2_PLACEMENT_3D('',#303,#265,#266);
#217=DIRECTION('',(0.,0.,1.));
#218=DIRECTION('',(1.,0.,0.));
#219=DIRECTION('',(1.,1.9600558815386E-015,0.));
#220=DIRECTION('',(-1.98254111540207E-015,1.,0.));
#221=DIRECTION('',(1.,-9.49408737391244E-016,0.));
#222=DIRECTION('',(9.91270557701033E-016,1.,0.));
#223=DIRECTION('',(1.,-3.62521803959234E-016,0.));
#224=DIRECTION('',(2.47817639425258E-016,1.,0.));
#225=DIRECTION('',(-1.,-9.49412781923742E-016,0.));
#226=DIRECTION('',(9.91270557701033E-016,-1.,0.));
#227=DIRECTION('',(0.,0.,-1.));
#228=DIRECTION('',(-1.,0.,0.));
#229=DIRECTION('',(-1.,-9.49412781923742E-016,0.));
#230=DIRECTION('',(9.91270557701033E-016,-1.,0.));
#231=DIRECTION('',(-1.,0.,0.));
#232=DIRECTION('',(0.,0.,1.));
#233=DIRECTION('',(0.,0.,1.));
#234=DIRECTION('',(1.,0.,0.));
#235=DIRECTION('',(-1.,-2.77555756156288E-017,-1.53536596827297E-015));
#236=DIRECTION('',(-1.98254111540207E-015,-1.22460635382239E-016,1.));
#237=DIRECTION('',(1.,2.77555756156288E-017,2.10191985803777E-015));
#238=DIRECTION('',(1.98254111540207E-015,0.,-1.));
#239=DIRECTION('',(-2.77555756156289E-017,1.,6.12303176911189E-017));
#240=DIRECTION('',(0.,-6.12303176911191E-017,1.));
#241=DIRECTION('',(-1.,-2.77555756156288E-017,-1.53536596827297E-015));
#242=DIRECTION('',(-1.98254111540207E-015,-1.22460635382239E-016,1.));
#243=DIRECTION('',(-1.,6.2731565973552E-015,-3.62521803959234E-016));
#244=DIRECTION('',(-5.9476233462062E-015,-1.,0.));
#245=DIRECTION('',(1.,2.77555756156289E-017,5.24722868658114E-016));
#246=DIRECTION('',(9.91270557701033E-016,0.,-1.));
#247=DIRECTION('',(2.77555756156289E-017,-1.,-6.12303176911189E-017));
#248=DIRECTION('',(0.,6.12303176911181E-017,-1.));
#249=DIRECTION('',(-1.,-4.33496775890626E-016,-5.43782705938851E-016));
#250=DIRECTION('',(-9.91270557701033E-016,0.,1.));
#251=DIRECTION('',(-1.,6.52757326649315E-015,2.34291072916505E-015));
#252=DIRECTION('',(6.93889390390723E-015,1.,0.));
#253=DIRECTION('',(1.,6.52757326649315E-015,-3.35355382877991E-015));
#254=DIRECTION('',(-6.93889390390723E-015,1.,0.));
#255=DIRECTION('',(0.,-1.,0.));
#256=DIRECTION('',(0.,0.,-1.));
#257=DIRECTION('',(-1.,6.52757326649315E-015,2.34291072916505E-015));
#258=DIRECTION('',(6.93889390390723E-015,1.,0.));
#259=DIRECTION('',(-1.,-1.86010504051802E-015,-3.62521803959235E-016));
#260=DIRECTION('',(1.98254111540207E-015,-1.,0.));
#261=DIRECTION('',(1.,6.52757326649315E-015,0.));
#262=DIRECTION('',(-6.93889390390723E-015,1.,0.));
#263=DIRECTION('',(0.,-1.,0.));
#264=DIRECTION('',(0.,0.,-1.));
#265=DIRECTION('',(-1.,-6.52757326649315E-015,0.));
#266=DIRECTION('',(6.93889390390723E-015,-1.,0.));
#267=CARTESIAN_POINT('',(0.,0.,0.));
#268=CARTESIAN_POINT('',(-4.90000000000002,9.1,0.));
#269=CARTESIAN_POINT('',(-4.90000000000003,12.6,0.));
#270=CARTESIAN_POINT('',(4.90000000000001,9.1,0.));
#271=CARTESIAN_POINT('',(4.90000000000001,12.6,0.));
#272=CARTESIAN_POINT('',(-4.90000000000002,9.1,0.));
#273=CARTESIAN_POINT('',(-4.9,-9.1,0.));
#274=CARTESIAN_POINT('',(-4.9,-12.6,0.));
#275=CARTESIAN_POINT('',(-4.9,0.,0.));
#276=CARTESIAN_POINT('',(4.90000000000001,-9.1,0.));
#277=CARTESIAN_POINT('',(4.90000000000001,-12.6,0.));
#278=CARTESIAN_POINT('',(4.90000000000001,-9.1,0.));
#279=CARTESIAN_POINT('',(4.9,0.,0.));
#280=CARTESIAN_POINT('',(16.1,1.0390681349414E-013,-9.10000000000007));
#281=CARTESIAN_POINT('',(16.1,1.03478201270302E-013,-5.60000000000007));
#282=CARTESIAN_POINT('',(16.1,1.02792421712162E-013,9.09999999999992));
#283=CARTESIAN_POINT('',(16.1,1.02792421712162E-013,5.59999999999992));
#284=CARTESIAN_POINT('',(16.1,1.03349617603151E-013,-7.80625564189563E-014));
#285=CARTESIAN_POINT('',(25.9,1.1836913372442E-013,-9.10000000000007));
#286=CARTESIAN_POINT('',(25.9,1.17940521500582E-013,-5.60000000000007));
#287=CARTESIAN_POINT('',(25.9,1.1836913372442E-013,-9.10000000000007));
#288=CARTESIAN_POINT('',(25.9,1.17254741942442E-013,9.09999999999992));
#289=CARTESIAN_POINT('',(25.9,1.17254741942442E-013,5.59999999999992));
#290=CARTESIAN_POINT('',(25.9,1.17811937833431E-013,-7.45931094670027E-014));
#291=CARTESIAN_POINT('',(25.9,1.0704069011589E-013,9.09999999999992));
#292=CARTESIAN_POINT('',(-25.9,1.46870078362283E-014,9.09999999999999));
#293=CARTESIAN_POINT('',(-25.9,3.50000000000001,9.09999999999999));
#294=CARTESIAN_POINT('',(-25.9,1.46870078362283E-014,-9.1));
#295=CARTESIAN_POINT('',(-25.9,3.50000000000001,-9.1));
#296=CARTESIAN_POINT('',(-25.9,1.46870078362283E-014,-3.46944695195361E-015));
#297=CARTESIAN_POINT('',(-16.1,3.29160372333049E-014,9.1));
#298=CARTESIAN_POINT('',(-16.1,3.50000000000003,9.1));
#299=CARTESIAN_POINT('',(-16.1,3.29160372333049E-014,9.1));
#300=CARTESIAN_POINT('',(-16.1,3.29160372333049E-014,-9.1));
#301=CARTESIAN_POINT('',(-16.1,3.50000000000003,-9.1));
#302=CARTESIAN_POINT('',(-16.1,3.29160372333049E-014,0.));
#303=CARTESIAN_POINT('',(-16.1,3.29160372333049E-014,-9.1));
#304=MECHANICAL_DESIGN_GEOMETRIC_PRESENTATION_REPRESENTATION('',(#32,#33,
#34),#305);
#305=(
GEOMETRIC_REPRESENTATION_CONTEXT(3)
GLOBAL_UNCERTAINTY_ASSIGNED_CONTEXT((#306))
GLOBAL_UNIT_ASSIGNED_CONTEXT((#312,#308,#307))
REPRESENTATION_CONTEXT('WOX 7-6 Kundenmodell','TOP_LEVEL_ASSEMBLY_PART')
);
#306=UNCERTAINTY_MEASURE_WITH_UNIT(LENGTH_MEASURE(2.E-005),#312,
'DISTANCE_ACCURACY_VALUE','Maximum Tolerance applied to model');
#307=(
NAMED_UNIT(*)
SI_UNIT($,.STERADIAN.)
SOLID_ANGLE_UNIT()
);
#308=(
CONVERSION_BASED_UNIT('DEGREE',#310)
NAMED_UNIT(#309)
PLANE_ANGLE_UNIT()
);
#309=DIMENSIONAL_EXPONENTS(0.,0.,0.,0.,0.,0.,0.);
#310=PLANE_ANGLE_MEASURE_WITH_UNIT(PLANE_ANGLE_MEASURE(0.0174532925),#311);
#311=(
NAMED_UNIT(*)
PLANE_ANGLE_UNIT()
SI_UNIT($,.RADIAN.)
);
#312=(
LENGTH_UNIT()
NAMED_UNIT(*)
SI_UNIT(.MILLI.,.METRE.)
);
ENDSEC;
END-ISO-10303-21;
